Tabulature (chords)
Below are a selection of Tabs/Chords
Please note: What follows are the chords played by Bob throughout the 
songs. Some songs only have one or two guitar chords, however due
to the sycopated riffs of the lead guitars the songs stay musicallly interesting.
Bob Marley--REDEMPTION SONG

----------------|----------------|--------------------|------------|
----------------|----------------|--------------------|------------|
----------------|----------------|--------------------|------------|
------------------|------2---O-----|--------------O-----|------------|
------O---2-----|--3-----------2-|------O---2-------2-|--3---O-----|
--3-----------3--|----------------|--3-----------------|----------3-|
-----------------|----------------|----------------|------------|
------------------|----------------|----------------|------------|
------------------|----------------|----------------|------------|
----------------- |------2---O-----|--------------O-|------------|
------O---2-----|--3-----------2-|------O---2-----|--3---O-----|
--3-----------3- |----------------|--3-------------|----------3-|

G Em7
Old Pirates, yes, they rob I.
C G/B Am
Sold I to the merchant ships
G Em C G/B Am
minutes after they took I from the bottomless pit.
G Em7
But my hand was made strong
C G/B Am
By the hand of the Almighty.
G Em C D
We forward in this generation triumphantly.

Chorus
G C D G
Won't you help to sing these songs of freedom?
C D Em C D G
'Cause all I ever had, redemption songs,
C D G C
redemption songs.
D G Em7

Emancipate yourselves from mental slavery,
C G/B Am
None but ourselves can free our minds.
G Em
Have no fear for atomic energy,
C G/B Am
'Cause none of them can stop the time.
G Em7

How long shall they kill our prophets
C G/B Am
While we stand aside and look?
G Em
Yes, some say it's just a part of it.
C D
We've got to fulfill the book.

Chorus

Emancipate yourselves from mental slavery,
None but ourselves can free our minds.
Have no fear for atomic energy,
'Cause none of them can stop the time.
How long shall they kill our prophets
While we stand aside and look?
Yes, some say it's just a part of it.
We've got to fulfill the book.

Won't you help to sing these songs of freedom?
'Cause all I ever had, redemption songs,
These songs of freedom, songs of freedom.
G 320003 Em7 020000
C x32010 G/B x20003
Am x02210 Em 022000
D xx0232


Positive Vibration
intro A F#m 4x
chorus A F#m 4x
verse F#m Bm F#m
D Em 4 4x
F#m
chorus A F#m 4x
verse (silent for the first part)
F#m Bm F#m
D Em 4 4x
F#m

Punky Reggae Party
Intro Bm
verse Bm
chorus (take a joyful sound)
Em D 4x
verse Bm
chorus Em D 8x
verse ect... Bm
chorus Em D 4x
rest of song Bm

Exodus
Am

Stir it Up
A D E

Rat Race
intro (no rythm)
rest of song Bm A
A Bm

Concrete Jungle

intro Em
enter the band Em Am Em 2x
verse Em Am Em
Em Am D
C Em
C Em
G D
Em Am Em Em
chorus Em Am Em 2x
verse Em Am Em
Em Am D
C Em
C Em
G D
Em Am Em Em

chorus Em Am Em 2x
solo Em Am Em
Em Am D
C Em
C Em
G D
bridge Em Am Em
chorus Em Am Em repeat untill the end


Kinky Reggae
intro C Gm 4x
verse C Gm 8x
Am F Am 2x
chorus Am x
bridge Am F Am
verse C Gm 8x
Am F Am 2x
chorus Am
bridge Am F Am 2x
chrous Am
bridge Am F Am 2x
chorus Am

Lively Up Yourself
D7 G D7 D7

Rebel Music
intro no rythem
F#m D7

War
Bm A

No More Trouble
chorus and verse Bm
break down Em
Em F#m Em
Em F#m
chorus and verse Bm
break down Em
Em F#m Em
Em F#m
Bm

Is This Love

Here is the main riff

|-------------------|------------------------|
|-------------------|--------5---7-5---7-5---|
|--------2----------|--------6---7-6---7-6---|
|----2-4---4----2-4-|---4-7----7-----7-----7-|
|--4----------4-----|-5----------------------|
|-------------------|------------------------|

|-------------------|--------5-5-5--4-5-4--2-|
|-------------------|--------5-5-5--5-5-5--2-|
|--------2----------|--------6-6-6--4-4-4--2-|
|----2-4---4----2-4-|---4-7--7-7-7---------4-|
|--4----------4-----|-5----------------------|
|-------------------|------------------------|


Heathen
// / /
Em C Bm

Jamming
intro Bm E G F#m 2x
chorus Bm E G F#m 2x
verse Bm E Bm E G F#m 2x
chorus Bm E G F#m 2x
verse Bm E Bm E G F#m 2x
chorus Bm E G F#m 2x
bridge Bm Em Bm Em
Bm Bm
verse Bm E Bm E G F#m
chorus Bm E G F#m 8x
bridge Bm Em Bm Em
Bm Bm
verse Bm E Bm E G F#m
chorus Bm E G F#m play untill end of song